  0
SECTION
  2
HEADER
  9
$ACADVER
  1
AC1024
  9
$ACADMAINTVER
 70
     6
  9
$DWGCODEPAGE
  3
ANSI_1252
  9
$INSBASE
 10
0.0
 20
0.0
 30
0.0
  9
$EXTMIN
 10
1.000000000000000E+20
 20
1.000000000000000E+20
 30
1.000000000000000E+20
  9
$EXTMAX
 10
-1.000000000000000E+20
 20
-1.000000000000000E+20
 30
-1.000000000000000E+20
  9
$LIMMIN
 10
0.0
 20
0.0
  9
$LIMMAX
 10
12.0
 20
9.0
  9
$ORTHOMODE
 70
     0
  9
$REGENMODE
 70
     1
  9
$FILLMODE
 70
     1
  9
$QTEXTMODE
 70
     0
  9
$MIRRTEXT
 70
     1
  9
$LTSCALE
 40
1.0
  9
$ATTMODE
 70
     1
  9
$TEXTSIZE
 40
0.2
  9
$TRACEWID
 40
0.05
  9
$TEXTSTYLE
  7
Standard
  9
$CLAYER
  8
0
  9
$CELTYPE
  6
ByLayer
  9
$CECOLOR
 62
   256
  9
$CELTSCALE
 40
1.0
  9
$DISPSILH
 70
     0
  9
$DIMSCALE
 40
1.0
  9
$DIMASZ
 40
0.18
  9
$DIMEXO
 40
0.0625
  9
$DIMDLI
 40
0.38
  9
$DIMRND
 40
0.0
  9
$DIMDLE
 40
0.0
  9
$DIMEXE
 40
0.18
  9
$DIMTP
 40
0.0
  9
$DIMTM
 40
0.0
  9
$DIMTXT
 40
0.18
  9
$DIMCEN
 40
0.09
  9
$DIMTSZ
 40
0.0
  9
$DIMTOL
 70
     0
  9
$DIMLIM
 70
     0
  9
$DIMTIH
 70
     1
  9
$DIMTOH
 70
     1
  9
$DIMSE1
 70
     0
  9
$DIMSE2
 70
     0
  9
$DIMTAD
 70
     0
  9
$DIMZIN
 70
     0
  9
$DIMBLK
  1

  9
$DIMASO
 70
     1
  9
$DIMSHO
 70
     1
  9
$DIMPOST
  1

  9
$DIMAPOST
  1

  9
$DIMALT
 70
     0
  9
$DIMALTD
 70
     2
  9
$DIMALTF
 40
25.4
  9
$DIMLFAC
 40
1.0
  9
$DIMTOFL
 70
     0
  9
$DIMTVP
 40
0.0
  9
$DIMTIX
 70
     0
  9
$DIMSOXD
 70
     0
  9
$DIMSAH
 70
     0
  9
$DIMBLK1
  1

  9
$DIMBLK2
  1

  9
$DIMSTYLE
  2
Standard
  9
$DIMCLRD
 70
     0
  9
$DIMCLRE
 70
     0
  9
$DIMCLRT
 70
     0
  9
$DIMTFAC
 40
1.0
  9
$DIMGAP
 40
0.09
  9
$DIMJUST
 70
     0
  9
$DIMSD1
 70
     0
  9
$DIMSD2
 70
     0
  9
$DIMTOLJ
 70
     1
  9
$DIMTZIN
 70
     0
  9
$DIMALTZ
 70
     0
  9
$DIMALTTZ
 70
     0
  9
$DIMUPT
 70
     0
  9
$DIMDEC
 70
     4
  9
$DIMTDEC
 70
     4
  9
$DIMALTU
 70
     2
  9
$DIMALTTD
 70
     2
  9
$DIMTXSTY
  7
Standard
  9
$DIMAUNIT
 70
     0
  9
$DIMADEC
 70
     0
  9
$DIMALTRND
 40
0.0
  9
$DIMAZIN
 70
     0
  9
$DIMDSEP
 70
    46
  9
$DIMATFIT
 70
     3
  9
$DIMFRAC
 70
     0
  9
$DIMLDRBLK
  1

  9
$DIMLUNIT
 70
     2
  9
$DIMLWD
 70
    -2
  9
$DIMLWE
 70
    -2
  9
$DIMTMOVE
 70
     0
  9
$DIMFXL
 40
1.0
  9
$DIMFXLON
 70
     0
  9
$DIMJOGANG
 40
0.7853981633974483
  9
$DIMTFILL
 70
     0
  9
$DIMTFILLCLR
 70
     0
  9
$DIMARCSYM
 70
     0
  9
$DIMLTYPE
  6

  9
$DIMLTEX1
  6

  9
$DIMLTEX2
  6

  9
$DIMTXTDIRECTION
 70
     0
  9
$LUNITS
 70
     2
  9
$LUPREC
 70
     4
  9
$SKETCHINC
 40
0.1
  9
$FILLETRAD
 40
0.5
  9
$AUNITS
 70
     0
  9
$AUPREC
 70
     0
  9
$MENU
  1
.
  9
$ELEVATION
 40
0.0
  9
$PELEVATION
 40
0.0
  9
$THICKNESS
 40
0.0
  9
$LIMCHECK
 70
     0
  9
$CHAMFERA
 40
0.5
  9
$CHAMFERB
 40
0.5
  9
$CHAMFERC
 40
1.0
  9
$CHAMFERD
 40
0.0
  9
$SKPOLY
 70
     0
  9
$TDCREATE
 40
2458947.400175405
  9
$TDUCREATE
 40
2458947.691842072
  9
$TDUPDATE
 40
2458947.400175417
  9
$TDUUPDATE
 40
2458947.691842083
  9
$TDINDWG
 40
0.0000000116
  9
$TDUSRTIMER
 40
0.0000000116
  9
$USRTIMER
 70
     1
  9
$ANGBASE
 50
0.0
  9
$ANGDIR
 70
     0
  9
$PDMODE
 70
     0
  9
$PDSIZE
 40
0.0
  9
$PLINEWID
 40
0.0
  9
$SPLFRAME
 70
     0
  9
$SPLINETYPE
 70
     6
  9
$SPLINESEGS
 70
     8
  9
$HANDSEED
  5
4D
  9
$SURFTAB1
 70
     6
  9
$SURFTAB2
 70
     6
  9
$SURFTYPE
 70
     6
  9
$SURFU
 70
     6
  9
$SURFV
 70
     6
  9
$UCSBASE
  2

  9
$UCSNAME
  2

  9
$UCSORG
 10
0.0
 20
0.0
 30
0.0
  9
$UCSXDIR
 10
1.0
 20
0.0
 30
0.0
  9
$UCSYDIR
 10
0.0
 20
1.0
 30
0.0
  9
$UCSORTHOREF
  2

  9
$UCSORTHOVIEW
 70
     0
  9
$UCSORGTOP
 10
0.0
 20
0.0
 30
0.0
  9
$UCSORGBOTTOM
 10
0.0
 20
0.0
 30
0.0
  9
$UCSORGLEFT
 10
0.0
 20
0.0
 30
0.0
  9
$UCSORGRIGHT
 10
0.0
 20
0.0
 30
0.0
  9
$UCSORGFRONT
 10
0.0
 20
0.0
 30
0.0
  9
$UCSORGBACK
 10
0.0
 20
0.0
 30
0.0
  9
$PUCSBASE
  2

  9
$PUCSNAME
  2

  9
$PUCSORG
 10
0.0
 20
0.0
 30
0.0
  9
$PUCSXDIR
 10
1.0
 20
0.0
 30
0.0
  9
$PUCSYDIR
 10
0.0
 20
1.0
 30
0.0
  9
$PUCSORTHOREF
  2

  9
$PUCSORTHOVIEW
 70
     0
  9
$PUCSORGTOP
 10
0.0
 20
0.0
 30
0.0
  9
$PUCSORGBOTTOM
 10
0.0
 20
0.0
 30
0.0
  9
$PUCSORGLEFT
 10
0.0
 20
0.0
 30
0.0
  9
$PUCSORGRIGHT
 10
0.0
 20
0.0
 30
0.0
  9
$PUCSORGFRONT
 10
0.0
 20
0.0
 30
0.0
  9
$PUCSORGBACK
 10
0.0
 20
0.0
 30
0.0
  9
$USERI1
 70
     0
  9
$USERI2
 70
     0
  9
$USERI3
 70
     0
  9
$USERI4
 70
     0
  9
$USERI5
 70
     0
  9
$USERR1
 40
0.0
  9
$USERR2
 40
0.0
  9
$USERR3
 40
0.0
  9
$USERR4
 40
0.0
  9
$USERR5
 40
0.0
  9
$WORLDVIEW
 70
     1
  9
$SHADEDGE
 70
     3
  9
$SHADEDIF
 70
    70
  9
$TILEMODE
 70
     1
  9
$MAXACTVP
 70
    64
  9
$PINSBASE
 10
0.0
 20
0.0
 30
0.0
  9
$PLIMCHECK
 70
     0
  9
$PEXTMIN
 10
1.000000000000000E+20
 20
1.000000000000000E+20
 30
1.000000000000000E+20
  9
$PEXTMAX
 10
-1.000000000000000E+20
 20
-1.000000000000000E+20
 30
-1.000000000000000E+20
  9
$PLIMMIN
 10
0.0
 20
0.0
  9
$PLIMMAX
 10
12.0
 20
9.0
  9
$UNITMODE
 70
     0
  9
$VISRETAIN
 70
     1
  9
$PLINEGEN
 70
     0
  9
$PSLTSCALE
 70
     1
  9
$TREEDEPTH
 70
  3020
  9
$CMLSTYLE
  2
Standard
  9
$CMLJUST
 70
     0
  9
$CMLSCALE
 40
1.0
  9
$PROXYGRAPHICS
 70
     1
  9
$MEASUREMENT
 70
     0
  9
$CELWEIGHT
370
    -1
  9
$ENDCAPS
280
     0
  9
$JOINSTYLE
280
     0
  9
$LWDISPLAY
290
     1
  9
$INSUNITS
 70
     1
  9
$HYPERLINKBASE
  1

  9
$STYLESHEET
  1

  9
$XEDIT
290
     1
  9
$CEPSNTYPE
380
     0
  9
$PSTYLEMODE
290
     1
  9
$FINGERPRINTGUID
  2
{D6707818-2DF2-4409-BC7B-98743B835F15}
  9
$VERSIONGUID
  2
{FAEB1C32-E019-11D5-929B-00C0DF256EC4}
  9
$EXTNAMES
290
     1
  9
$PSVPSCALE
 40
0.0
  9
$OLESTARTUP
290
     0
  9
$SORTENTS
280
   127
  9
$INDEXCTL
280
     0
  9
$HIDETEXT
280
     1
  9
$XCLIPFRAME
280
     2
  9
$HALOGAP
280
     0
  9
$OBSCOLOR
 70
   257
  9
$OBSLTYPE
280
     0
  9
$INTERSECTIONDISPLAY
280
     0
  9
$INTERSECTIONCOLOR
 70
   257
  9
$DIMASSOC
280
     2
  9
$PROJECTNAME
  1

  9
$CAMERADISPLAY
290
     0
  9
$LENSLENGTH
 40
50.0
  9
$CAMERAHEIGHT
 40
0.0
  9
$STEPSPERSEC
 40
2.0
  9
$STEPSIZE
 40
6.0
  9
$3DDWFPREC
 40
2.0
  9
$PSOLWIDTH
 40
0.25
  9
$PSOLHEIGHT
 40
4.0
  9
$LOFTANG1
 40
1.570796326794897
  9
$LOFTANG2
 40
1.570796326794897
  9
$LOFTMAG1
 40
0.0
  9
$LOFTMAG2
 40
0.0
  9
$LOFTPARAM
 70
     7
  9
$LOFTNORMALS
280
     1
  9
$LATITUDE
 40
37.795
  9
$LONGITUDE
 40
-122.394
  9
$NORTHDIRECTION
 40
0.0
  9
$TIMEZONE
 70
 -8000
  9
$LIGHTGLYPHDISPLAY
280
     1
  9
$TILEMODELIGHTSYNCH
280
     1
  9
$CMATERIAL
347
3C
  9
$SOLIDHIST
280
     1
  9
$SHOWHIST
280
     1
  9
$DWFFRAME
280
     2
  9
$DGNFRAME
280
     2
  9
$REALWORLDSCALE
290
     1
  9
$INTERFERECOLOR
 62
   256
  9
$CSHADOW
280
     0
  9
$SHADOWPLANELOCATION
 40
0.0
  0
ENDSEC
  0
SECTION
  2
CLASSES
  0
CLASS
  1
ACDBDICTIONARYWDFLT
  2
AcDbDictionaryWithDefault
  3
ObjectDBX Classes
 90
        0
 91
        4
280
     0
281
     0
  0
CLASS
  1
VISUALSTYLE
  2
AcDbVisualStyle
  3
ObjectDBX Classes
 90
     4095
 91
        4
280
     0
281
     0
  0
CLASS
  1
MATERIAL
  2
AcDbMaterial
  3
ObjectDBX Classes
 90
     1153
 91
        4
280
     0
281
     0
  0
CLASS
  1
SUN
  2
AcDbSun
  3
SCENEOE
 90
     1024
 91
        4
280
     0
281
     0
  0
ENDSEC
  0
SECTION
  2
TABLES
  0
TABLE
  2
VPORT
  5
8
330
0
100
AcDbSymbolTable
 70
     1
  0
VPORT
  5
29
330
8
100
AcDbSymbolTableRecord
100
AcDbViewportTableRecord
  2
*Active
 70
     0
 10
0.0
 20
0.0
 11
1.0
 21
1.0
 12
0.0
 22
0.0
 13
0.0
 23
0.0
 14
0.5
 24
0.5
 15
0.5
 25
0.5
 16
0.0
 26
0.0
 36
1.0
 17
10.34088164251208
 27
-7.736111111111112
 37
0.0
 40
16.56521739130434
 41
1.24850539515894
 42
50.0
 43
0.0
 44
0.0
 50
0.0
 51
0.0
 71
     0
 72
   100
 73
     1
 74
     3
 75
     0
 76
     0
 77
     0
 78
     0
281
     0
 65
     1
110
0.0
120
0.0
130
0.0
111
1.0
121
0.0
131
0.0
112
0.0
122
1.0
132
0.0
 79
     0
146
0.0
 60
     3
 61
     5
292
     1
282
     1
141
0.0
142
0.0
 63
   250
361
3F
  0
ENDTAB
  0
TABLE
  2
LTYPE
  5
5
330
0
100
AcDbSymbolTable
 70
     1
  0
LTYPE
  5
14
330
5
100
AcDbSymbolTableRecord
100
AcDbLinetypeTableRecord
  2
ByBlock
 70
     0
  3

 72
    65
 73
     0
 40
0.0
  0
LTYPE
  5
15
330
5
100
AcDbSymbolTableRecord
100
AcDbLinetypeTableRecord
  2
ByLayer
 70
     0
  3

 72
    65
 73
     0
 40
0.0
  0
LTYPE
  5
16
330
5
100
AcDbSymbolTableRecord
100
AcDbLinetypeTableRecord
  2
Continuous
 70
     0
  3
Solid line
 72
    65
 73
     0
 40
0.0
  0
ENDTAB
  0
TABLE
  2
LAYER
  5
2
330
0
100
AcDbSymbolTable
 70
     2
  0
LAYER
  5
10
330
2
100
AcDbSymbolTableRecord
100
AcDbLayerTableRecord
  2
0
 70
     0
 62
     7
  6
Continuous
370
    -3
390
F
347
3E
  0
LAYER
  5
40
330
2
100
AcDbSymbolTableRecord
100
AcDbLayerTableRecord
  2
Layer 1
 70
     0
 62
     7
  6
Continuous
370
    -3
390
F
347
3E
  0
ENDTAB
  0
TABLE
  2
STYLE
  5
3
330
0
100
AcDbSymbolTable
 70
     1
  0
STYLE
  5
11
330
3
100
AcDbSymbolTableRecord
100
AcDbTextStyleTableRecord
  2
Standard
 70
     0
 40
0.0
 41
1.0
 50
0.0
 71
     0
 42
0.2
  3
txt
  4

  0
ENDTAB
  0
TABLE
  2
VIEW
  5
6
330
0
100
AcDbSymbolTable
 70
     0
  0
ENDTAB
  0
TABLE
  2
UCS
  5
7
330
0
100
AcDbSymbolTable
 70
     0
  0
ENDTAB
  0
TABLE
  2
APPID
  5
9
330
0
100
AcDbSymbolTable
 70
     1
  0
APPID
  5
12
330
9
100
AcDbSymbolTableRecord
100
AcDbRegAppTableRecord
  2
ACAD
 70
     0
  0
ENDTAB
  0
TABLE
  2
DIMSTYLE
  5
A
330
0
100
AcDbSymbolTable
 70
     1
100
AcDbDimStyleTable
  0
DIMSTYLE
105
27
330
A
100
AcDbSymbolTableRecord
100
AcDbDimStyleTableRecord
  2
Standard
 70
     0
178
     0
340
11
  0
ENDTAB
  0
TABLE
  2
BLOCK_RECORD
  5
1
330
0
100
AcDbSymbolTable
 70
     1
  0
BLOCK_RECORD
  5
1F
330
1
100
AcDbSymbolTableRecord
100
AcDbBlockTableRecord
  2
*Model_Space
340
22
 70
     0
280
     1
281
     0
  0
BLOCK_RECORD
  5
1B
330
1
100
AcDbSymbolTableRecord
100
AcDbBlockTableRecord
  2
*Paper_Space
340
1E
 70
     0
280
     1
281
     0
  0
BLOCK_RECORD
  5
23
330
1
100
AcDbSymbolTableRecord
100
AcDbBlockTableRecord
  2
*Paper_Space0
340
26
 70
     0
280
     1
281
     0
  0
ENDTAB
  0
ENDSEC
  0
SECTION
  2
BLOCKS
  0
BLOCK
  5
20
330
1F
100
AcDbEntity
  8
0
100
AcDbBlockBegin
  2
*Model_Space
 70
     0
 10
0.0
 20
0.0
 30
0.0
  3
*Model_Space
  1

  0
ENDBLK
  5
21
330
1F
100
AcDbEntity
  8
0
100
AcDbBlockEnd
  0
BLOCK
  5
1C
330
1B
100
AcDbEntity
 67
     1
  8
0
100
AcDbBlockBegin
  2
*Paper_Space
 70
     0
 10
0.0
 20
0.0
 30
0.0
  3
*Paper_Space
  1

  0
ENDBLK
  5
1D
330
1B
100
AcDbEntity
 67
     1
  8
0
100
AcDbBlockEnd
  0
BLOCK
  5
24
330
23
100
AcDbEntity
  8
0
100
AcDbBlockBegin
  2
*Paper_Space0
 70
     0
 10
0.0
 20
0.0
 30
0.0
  3
*Paper_Space0
  1

  0
ENDBLK
  5
25
330
23
100
AcDbEntity
  8
0
100
AcDbBlockEnd
  0
ENDSEC
  0
SECTION
  2
ENTITIES
  0
SPLINE
  5
41
330
1F
100
AcDbEntity
  8
Layer 1
 62
   240
420
 15540772
370
   106
100
AcDbSpline
210
0.0
220
0.0
230
1.0
 70
    11
 71
     3
 72
    23
 73
    19
 74
     0
 42
0.0000000001
 43
0.0000000001
 12
1.0
 22
0.0
 32
0.0
 13
1.0
 23
0.0
 33
0.0
 40
0.0
 40
0.0
 40
0.0
 40
0.0
 40
1.0
 40
1.0
 40
1.0
 40
2.0
 40
2.0
 40
2.0
 40
3.0
 40
3.0
 40
3.0
 40
4.0
 40
4.0
 40
4.0
 40
5.0
 40
5.0
 40
5.0
 40
6.0
 40
6.0
 40
6.0
 40
6.0
 10
12.09516650770891
 20
-10.10613863189832
 30
0.0
 10
12.1642021014378
 20
-10.10613863189832
 30
0.0
 10
12.22016650770891
 20
-10.16210303816944
 30
0.0
 10
12.22016650770891
 20
-10.23113863189832
 30
0.0
 10
12.22016650770891
 20
-10.23113863189832
 30
0.0
 10
12.22016650770891
 20
-11.0461386318983
 30
0.0
 10
12.22016650770891
 20
-11.0461386318983
 30
0.0
 10
12.22016650770891
 20
-11.11517422562707
 30
0.0
 10
12.1642021014378
 20
-11.1711386318983
 30
0.0
 10
12.09516650770891
 20
-11.1711386318983
 30
0.0
 10
12.02613091398017
 20
-11.1711386318983
 30
0.0
 10
11.97016650770891
 20
-11.11517422562707
 30
0.0
 10
11.97016650770891
 20
-11.0461386318983
 30
0.0
 10
11.97016650770891
 20
-11.0461386318983
 30
0.0
 10
11.97016650770891
 20
-10.23113863189832
 30
0.0
 10
11.97016650770891
 20
-10.23113863189832
 30
0.0
 10
11.97016650770891
 20
-10.16210303816944
 30
0.0
 10
12.02613091398017
 20
-10.10613863189832
 30
0.0
 10
12.09516650770891
 20
-10.10613863189832
 30
0.0
  0
SPLINE
  5
42
330
1F
100
AcDbEntity
  8
Layer 1
 62
   240
420
 15540772
370
   106
100
AcDbSpline
210
0.0
220
0.0
230
1.0
 70
    11
 71
     3
 72
    23
 73
    19
 74
     0
 42
0.0000000001
 43
0.0000000001
 12
1.0
 22
0.0
 32
0.0
 13
1.0
 23
0.0
 33
0.0
 40
0.0
 40
0.0
 40
0.0
 40
0.0
 40
1.0
 40
1.0
 40
1.0
 40
2.0
 40
2.0
 40
2.0
 40
3.0
 40
3.0
 40
3.0
 40
4.0
 40
4.0
 40
4.0
 40
5.0
 40
5.0
 40
5.0
 40
6.0
 40
6.0
 40
6.0
 40
6.0
 10
2.22016650770892
 20
-11.0461386318983
 30
0.0
 10
2.22016650770892
 20
-11.0461386318983
 30
0.0
 10
2.22016650770892
 20
-10.23113863189832
 30
0.0
 10
2.22016650770892
 20
-10.23113863189832
 30
0.0
 10
2.22016650770892
 20
-10.16210303816944
 30
0.0
 10
2.164202101437809
 20
-10.10613863189832
 30
0.0
 10
2.09516650770892
 20
-10.10613863189832
 30
0.0
 10
2.026130913980157
 20
-10.10613863189832
 30
0.0
 10
1.97016650770892
 20
-10.16210303816944
 30
0.0
 10
1.97016650770892
 20
-10.23113863189832
 30
0.0
 10
1.97016650770892
 20
-10.23113863189832
 30
0.0
 10
1.97016650770892
 20
-11.0461386318983
 30
0.0
 10
1.97016650770892
 20
-11.0461386318983
 30
0.0
 10
1.97016650770892
 20
-11.11517422562707
 30
0.0
 10
2.026130913980157
 20
-11.1711386318983
 30
0.0
 10
2.09516650770892
 20
-11.1711386318983
 30
0.0
 10
2.164202101437809
 20
-11.1711386318983
 30
0.0
 10
2.22016650770892
 20
-11.11517422562707
 30
0.0
 10
2.22016650770892
 20
-11.0461386318983
 30
0.0
  0
SPLINE
  5
43
330
1F
100
AcDbEntity
  8
Layer 1
 62
   240
420
 15540772
370
   106
100
AcDbSpline
210
0.0
220
0.0
230
1.0
 70
    11
 71
     3
 72
    38
 73
    34
 74
     0
 42
0.0000000001
 43
0.0000000001
 12
1.0
 22
0.0
 32
0.0
 13
1.0
 23
0.0
 33
0.0
 40
0.0
 40
0.0
 40
0.0
 40
0.0
 40
1.0
 40
1.0
 40
1.0
 40
2.0
 40
2.0
 40
2.0
 40
3.0
 40
3.0
 40
3.0
 40
4.0
 40
4.0
 40
4.0
 40
5.0
 40
5.0
 40
5.0
 40
6.0
 40
6.0
 40
6.0
 40
7.0
 40
7.0
 40
7.0
 40
8.0
 40
8.0
 40
8.0
 40
9.0
 40
9.0
 40
9.0
 40
10.0
 40
10.0
 40
10.0
 40
11.0
 40
11.0
 40
11.0
 40
11.0
 10
1.22016650770892
 20
-11.0461386318983
 30
0.0
 10
1.22016650770892
 20
-11.0461386318983
 30
0.0
 10
1.22016650770892
 20
-10.23113863189832
 30
0.0
 10
1.22016650770892
 20
-10.23113863189832
 30
0.0
 10
1.22016650770892
 20
-10.16210303816944
 30
0.0
 10
1.164202101437809
 20
-10.10613863189832
 30
0.0
 10
1.09516650770892
 20
-10.10613863189832
 30
0.0
 10
1.026130913980157
 20
-10.10613863189832
 30
0.0
 10
0.9701665077089198
 20
-10.16210303816944
 30
0.0
 10
0.9701665077089198
 20
-10.23113863189832
 30
0.0
 10
0.9701665077089198
 20
-10.23113863189832
 30
0.0
 10
0.9701665077089198
 20
-10.43708218819832
 30
0.0
 10
0.9701665077089198
 20
-10.43708218819832
 30
0.0
 10
0.9701665077089198
 20
-10.4750708610572
 30
0.0
 10
0.9486414490537779
 20
-10.5097789752422
 30
0.0
 10
0.9146109521533642
 20
-10.52666282984609
 30
0.0
 10
0.8527684243258464
 20
-10.55734531594026
 30
0.0
 10
0.8275082195475154
 20
-10.63235165962609
 30
0.0
 10
0.8581907056491849
 20
-10.69419418745373
 30
0.0
 10
0.8703288984201738
 20
-10.7186594971333
 30
0.0
 10
0.8901456424740672
 20
-10.73847624118707
 30
0.0
 10
0.9146109521534905
 20
-10.75061443395804
 30
0.0
 10
0.9486414490537779
 20
-10.76749828855443
 30
0.0
 10
0.9701665077089198
 20
-10.80220640273943
 30
0.0
 10
0.9701665077089198
 20
-10.8401950755983
 30
0.0
 10
0.9701665077089198
 20
-10.8401950755983
 30
0.0
 10
0.9701665077089198
 20
-11.0461386318983
 30
0.0
 10
0.9701665077089198
 20
-11.0461386318983
 30
0.0
 10
0.9701665077089198
 20
-11.11517422562707
 30
0.0
 10
1.026130913980157
 20
-11.1711386318983
 30
0.0
 10
1.09516650770892
 20
-11.1711386318983
 30
0.0
 10
1.164202101437809
 20
-11.1711386318983
 30
0.0
 10
1.22016650770892
 20
-11.11517422562707
 30
0.0
 10
1.22016650770892
 20
-11.0461386318983
 30
0.0
  0
SPLINE
  5
44
330
1F
100
AcDbEntity
  8
Layer 1
 62
   240
420
 15540772
370
   106
100
AcDbSpline
210
0.0
220
0.0
230
1.0
 70
    11
 71
     3
 72
    77
 73
    73
 74
     0
 42
0.0000000001
 43
0.0000000001
 12
1.0
 22
0.0
 32
0.0
 13
1.0
 23
0.0
 33
0.0
 40
0.0
 40
0.0
 40
0.0
 40
0.0
 40
1.0
 40
1.0
 40
1.0
 40
2.0
 40
2.0
 40
2.0
 40
3.0
 40
3.0
 40
3.0
 40
4.0
 40
4.0
 40
4.0
 40
5.0
 40
5.0
 40
5.0
 40
6.0
 40
6.0
 40
6.0
 40
7.0
 40
7.0
 40
7.0
 40
8.0
 40
8.0
 40
8.0
 40
9.0
 40
9.0
 40
9.0
 40
10.0
 40
10.0
 40
10.0
 40
11.0
 40
11.0
 40
11.0
 40
12.0
 40
12.0
 40
12.0
 40
13.0
 40
13.0
 40
13.0
 40
14.0
 40
14.0
 40
14.0
 40
15.0
 40
15.0
 40
15.0
 40
16.0
 40
16.0
 40
16.0
 40
17.0
 40
17.0
 40
17.0
 40
18.0
 40
18.0
 40
18.0
 40
19.0
 40
19.0
 40
19.0
 40
20.0
 40
20.0
 40
20.0
 40
21.0
 40
21.0
 40
21.0
 40
22.0
 40
22.0
 40
22.0
 40
23.0
 40
23.0
 40
23.0
 40
24.0
 40
24.0
 40
24.0
 40
24.0
 10
10.82931755270894
 20
-9.7636385859983
 30
0.0
 10
10.82931755270894
 20
-9.7636385859983
 30
0.0
 10
2.861015462808925
 20
-9.7636385859983
 30
0.0
 10
2.861015462808925
 20
-9.7636385859983
 30
0.0
 10
2.811852331337819
 20
-9.7636385859983
 30
0.0
 10
2.763780450570582
 20
-9.749143078293173
 30
0.0
 10
2.722812511615441
 20
-9.721965118867603
 30
0.0
 10
2.706057656060175
 20
-9.710850017724699
 30
0.0
 10
2.684275359357646
 20
-9.710850017724699
 30
0.0
 10
2.667520503844887
 20
-9.721965118867603
 30
0.0
 10
2.626552564947247
 20
-9.749143078293173
 30
0.0
 10
2.578480684180161
 20
-9.7636385859983
 30
0.0
 10
2.529317552708903
 20
-9.7636385859983
 30
0.0
 10
2.529317552708903
 20
-9.7636385859983
 30
0.0
 10
1.224887407508921
 20
-9.7636385859983
 30
0.0
 10
1.224887407508921
 20
-9.7636385859983
 30
0.0
 10
0.8106738451358649
 20
-9.7636385859983
 30
0.0
 10
0.4748874075089209
 20
-10.09942502362512
 30
0.0
 10
0.4748874075089209
 20
-10.5136385859983
 30
0.0
 10
0.4748874075089209
 20
-10.5136385859983
 30
0.0
 10
0.4748874075089209
 20
-10.7636386777983
 30
0.0
 10
0.4748874075089209
 20
-10.7636386777983
 30
0.0
 10
0.4748874075089209
 20
-11.17785224017138
 30
0.0
 10
0.8106738451358649
 20
-11.5136386777983
 30
0.0
 10
1.224887407508921
 20
-11.5136386777983
 30
0.0
 10
1.224887407508921
 20
-11.5136386777983
 30
0.0
 10
2.529317552708903
 20
-11.5136386777983
 30
0.0
 10
2.529317552708903
 20
-11.5136386777983
 30
0.0
 10
2.578480684180161
 20
-11.5136386777983
 30
0.0
 10
2.626552564947247
 20
-11.52813418550345
 30
0.0
 10
2.667520503802532
 20
-11.555312144929
 30
0.0
 10
2.684275359357646
 20
-11.56642724607193
 30
0.0
 10
2.706057656060175
 20
-11.56642724607193
 30
0.0
 10
2.722812511673093
 20
-11.555312144929
 30
0.0
 10
2.763780450570582
 20
-11.52813418550345
 30
0.0
 10
2.811852331337819
 20
-11.5136386777983
 30
0.0
 10
2.861015462808925
 20
-11.5136386777983
 30
0.0
 10
2.861015462808925
 20
-11.5136386777983
 30
0.0
 10
10.82931755270894
 20
-11.5136386777983
 30
0.0
 10
10.82931755270894
 20
-11.5136386777983
 30
0.0
 10
10.87848068418018
 20
-11.5136386777983
 30
0.0
 10
10.92655256494724
 20
-11.52813418550345
 30
0.0
 10
10.96752050380251
 20
-11.555312144929
 30
0.0
 10
10.98427535935783
 20
-11.56642724607193
 30
0.0
 10
11.00605765606017
 20
-11.56642724607193
 30
0.0
 10
11.02281251167308
 20
-11.555312144929
 30
0.0
 10
11.0637804505706
 20
-11.52813418550345
 30
0.0
 10
11.11185233133781
 20
-11.5136386777983
 30
0.0
 10
11.16101546280894
 20
-11.5136386777983
 30
0.0
 10
11.16101546280894
 20
-11.5136386777983
 30
0.0
 10
12.4654456079089
 20
-11.5136386777983
 30
0.0
 10
12.4654456079089
 20
-11.5136386777983
 30
0.0
 10
12.87965917028214
 20
-11.5136386777983
 30
0.0
 10
13.2154456079089
 20
-11.17785224017138
 30
0.0
 10
13.2154456079089
 20
-10.7636386777983
 30
0.0
 10
13.2154456079089
 20
-10.7636386777983
 30
0.0
 10
13.2154456079089
 20
-10.5136385859983
 30
0.0
 10
13.2154456079089
 20
-10.5136385859983
 30
0.0
 10
13.2154456079089
 20
-10.09942502362512
 30
0.0
 10
12.87965917028214
 20
-9.7636385859983
 30
0.0
 10
12.4654456079089
 20
-9.7636385859983
 30
0.0
 10
12.4654456079089
 20
-9.7636385859983
 30
0.0
 10
11.16101546280894
 20
-9.7636385859983
 30
0.0
 10
11.16101546280894
 20
-9.7636385859983
 30
0.0
 10
11.11185233133781
 20
-9.7636385859983
 30
0.0
 10
11.0637804505706
 20
-9.749143078293173
 30
0.0
 10
11.02281251167308
 20
-9.721965118867603
 30
0.0
 10
11.00605765606017
 20
-9.710850017724699
 30
0.0
 10
10.98427535935783
 20
-9.710850017724699
 30
0.0
 10
10.96752050380251
 20
-9.721965118867603
 30
0.0
 10
10.92655256494724
 20
-9.749143078293173
 30
0.0
 10
10.87848068418018
 20
-9.7636385859983
 30
0.0
 10
10.82931755270894
 20
-9.7636385859983
 30
0.0
  0
SPLINE
  5
45
330
1F
100
AcDbEntity
  8
Layer 1
 62
   240
420
 15540772
370
   106
100
AcDbSpline
210
0.0
220
0.0
230
1.0
 70
    11
 71
     3
 72
    23
 73
    19
 74
     0
 42
0.0000000001
 43
0.0000000001
 12
1.0
 22
0.0
 32
0.0
 13
1.0
 23
0.0
 33
0.0
 40
0.0
 40
0.0
 40
0.0
 40
0.0
 40
1.0
 40
1.0
 40
1.0
 40
2.0
 40
2.0
 40
2.0
 40
3.0
 40
3.0
 40
3.0
 40
4.0
 40
4.0
 40
4.0
 40
5.0
 40
5.0
 40
5.0
 40
6.0
 40
6.0
 40
6.0
 40
6.0
 10
1.47016650770892
 20
-11.0461386318983
 30
0.0
 10
1.47016650770892
 20
-11.11517422562707
 30
0.0
 10
1.526130913980157
 20
-11.1711386318983
 30
0.0
 10
1.59516650770892
 20
-11.1711386318983
 30
0.0
 10
1.664202101437809
 20
-11.1711386318983
 30
0.0
 10
1.72016650770892
 20
-11.11517422562707
 30
0.0
 10
1.72016650770892
 20
-11.0461386318983
 30
0.0
 10
1.72016650770892
 20
-11.0461386318983
 30
0.0
 10
1.72016650770892
 20
-10.23113863189832
 30
0.0
 10
1.72016650770892
 20
-10.23113863189832
 30
0.0
 10
1.72016650770892
 20
-10.16210303816944
 30
0.0
 10
1.664202101437809
 20
-10.10613863189832
 30
0.0
 10
1.59516650770892
 20
-10.10613863189832
 30
0.0
 10
1.526130913980157
 20
-10.10613863189832
 30
0.0
 10
1.47016650770892
 20
-10.16210303816944
 30
0.0
 10
1.47016650770892
 20
-10.23113863189832
 30
0.0
 10
1.47016650770892
 20
-10.23113863189832
 30
0.0
 10
1.47016650770892
 20
-11.0461386318983
 30
0.0
 10
1.47016650770892
 20
-11.0461386318983
 30
0.0
  0
SPLINE
  5
46
330
1F
100
AcDbEntity
  8
Layer 1
 62
   240
420
 15540772
370
   106
100
AcDbSpline
210
0.0
220
0.0
230
1.0
 70
    11
 71
     3
 72
    23
 73
    19
 74
     0
 42
0.0000000001
 43
0.0000000001
 12
1.0
 22
0.0
 32
0.0
 13
1.0
 23
0.0
 33
0.0
 40
0.0
 40
0.0
 40
0.0
 40
0.0
 40
1.0
 40
1.0
 40
1.0
 40
2.0
 40
2.0
 40
2.0
 40
3.0
 40
3.0
 40
3.0
 40
4.0
 40
4.0
 40
4.0
 40
5.0
 40
5.0
 40
5.0
 40
6.0
 40
6.0
 40
6.0
 40
6.0
 10
11.47016650770891
 20
-11.0461386318983
 30
0.0
 10
11.47016650770891
 20
-11.11517422562707
 30
0.0
 10
11.52613091398017
 20
-11.1711386318983
 30
0.0
 10
11.59516650770891
 20
-11.1711386318983
 30
0.0
 10
11.6642021014378
 20
-11.1711386318983
 30
0.0
 10
11.72016650770891
 20
-11.11517422562707
 30
0.0
 10
11.72016650770891
 20
-11.0461386318983
 30
0.0
 10
11.72016650770891
 20
-11.0461386318983
 30
0.0
 10
11.72016650770891
 20
-10.23113863189832
 30
0.0
 10
11.72016650770891
 20
-10.23113863189832
 30
0.0
 10
11.72016650770891
 20
-10.16210303816944
 30
0.0
 10
11.6642021014378
 20
-10.10613863189832
 30
0.0
 10
11.59516650770891
 20
-10.10613863189832
 30
0.0
 10
11.52613091398017
 20
-10.10613863189832
 30
0.0
 10
11.47016650770891
 20
-10.16210303816944
 30
0.0
 10
11.47016650770891
 20
-10.23113863189832
 30
0.0
 10
11.47016650770891
 20
-10.23113863189832
 30
0.0
 10
11.47016650770891
 20
-11.0461386318983
 30
0.0
 10
11.47016650770891
 20
-11.0461386318983
 30
0.0
  0
SPLINE
  5
47
330
1F
100
AcDbEntity
  8
Layer 1
 62
   240
420
 15540772
370
   106
100
AcDbSpline
210
0.0
220
0.0
230
1.0
 70
    11
 71
     3
 72
    38
 73
    34
 74
     0
 42
0.0000000001
 43
0.0000000001
 12
1.0
 22
0.0
 32
0.0
 13
1.0
 23
0.0
 33
0.0
 40
0.0
 40
0.0
 40
0.0
 40
0.0
 40
1.0
 40
1.0
 40
1.0
 40
2.0
 40
2.0
 40
2.0
 40
3.0
 40
3.0
 40
3.0
 40
4.0
 40
4.0
 40
4.0
 40
5.0
 40
5.0
 40
5.0
 40
6.0
 40
6.0
 40
6.0
 40
7.0
 40
7.0
 40
7.0
 40
8.0
 40
8.0
 40
8.0
 40
9.0
 40
9.0
 40
9.0
 40
10.0
 40
10.0
 40
10.0
 40
11.0
 40
11.0
 40
11.0
 40
11.0
 10
12.47016650770891
 20
-11.0461386318983
 30
0.0
 10
12.47016650770891
 20
-11.11517422562707
 30
0.0
 10
12.52613091398017
 20
-11.1711386318983
 30
0.0
 10
12.59516650770891
 20
-11.1711386318983
 30
0.0
 10
12.66420210143779
 20
-11.1711386318983
 30
0.0
 10
12.72016650770891
 20
-11.11517422562707
 30
0.0
 10
12.72016650770891
 20
-11.0461386318983
 30
0.0
 10
12.72016650770891
 20
-11.0461386318983
 30
0.0
 10
12.72016650770891
 20
-10.8401950755983
 30
0.0
 10
12.72016650770891
 20
-10.8401950755983
 30
0.0
 10
12.72016650770891
 20
-10.80220640273943
 30
0.0
 10
12.74169156636405
 20
-10.76749828855443
 30
0.0
 10
12.77572206326461
 20
-10.75061443395053
 30
0.0
 10
12.83756459109211
 20
-10.71993194785637
 30
0.0
 10
12.86282479587029
 20
-10.64492560417054
 30
0.0
 10
12.83214230976864
 20
-10.58308307634277
 30
0.0
 10
12.8200041169978
 20
-10.5586177666633
 30
0.0
 10
12.80018737294394
 20
-10.53880102260943
 30
0.0
 10
12.77572206326446
 20
-10.52666282983859
 30
0.0
 10
12.74169156636405
 20
-10.5097789752422
 30
0.0
 10
12.72016650770891
 20
-10.4750708610572
 30
0.0
 10
12.72016650770891
 20
-10.43708218819832
 30
0.0
 10
12.72016650770891
 20
-10.43708218819832
 30
0.0
 10
12.72016650770891
 20
-10.23113863189832
 30
0.0
 10
12.72016650770891
 20
-10.23113863189832
 30
0.0
 10
12.72016650770891
 20
-10.16210303816944
 30
0.0
 10
12.66420210143779
 20
-10.10613863189832
 30
0.0
 10
12.59516650770891
 20
-10.10613863189832
 30
0.0
 10
12.52613091398017
 20
-10.10613863189832
 30
0.0
 10
12.47016650770891
 20
-10.16210303816944
 30
0.0
 10
12.47016650770891
 20
-10.23113863189832
 30
0.0
 10
12.47016650770891
 20
-10.23113863189832
 30
0.0
 10
12.47016650770891
 20
-11.0461386318983
 30
0.0
 10
12.47016650770891
 20
-11.0461386318983
 30
0.0
  0
SPLINE
  5
48
330
1F
100
AcDbEntity
  8
Layer 1
 62
   240
420
 15540772
370
   106
100
AcDbSpline
210
0.0
220
0.0
230
1.0
 70
    11
 71
     3
 72
    29
 73
    25
 74
     0
 42
0.0000000001
 43
0.0000000001
 12
1.0
 22
0.0
 32
0.0
 13
1.0
 23
0.0
 33
0.0
 40
0.0
 40
0.0
 40
0.0
 40
0.0
 40
1.0
 40
1.0
 40
1.0
 40
2.0
 40
2.0
 40
2.0
 40
3.0
 40
3.0
 40
3.0
 40
4.0
 40
4.0
 40
4.0
 40
5.0
 40
5.0
 40
5.0
 40
6.0
 40
6.0
 40
6.0
 40
7.0
 40
7.0
 40
7.0
 40
8.0
 40
8.0
 40
8.0
 40
8.0
 10
1.160822687254747
 20
-1.945179502793571
 30
0.0
 10
1.160822687254747
 20
-1.945179502793571
 30
0.0
 10
1.036106292056982
 20
-1.953595010580519
 30
0.0
 10
1.036106292056982
 20
-1.953595010580519
 30
0.0
 10
0.9672273289412993
 20
-1.958242767201758
 30
0.0
 10
0.9076221456890733
 20
-1.906173086311343
 30
0.0
 10
0.9029743890548868
 20
-1.837294123193563
 30
0.0
 10
0.9029743890548868
 20
-1.837294123193563
 30
0.0
 10
0.8013150548678014
 20
-0.3307200692956561
 30
0.0
 10
0.8013150548678014
 20
-0.3307200692956561
 30
0.0
 10
0.7966672982467015
 20
-0.2618411061801124
 30
0.0
 10
0.8487369791371293
 20
-0.2022359229277476
 30
0.0
 10
0.9176159422547698
 20
-0.1975881662935611
 30
0.0
 10
0.9176159422547698
 20
-0.1975881662935611
 30
0.0
 10
1.042332337454771
 20
-0.1891726584935769
 30
0.0
 10
1.042332337454771
 20
-0.1891726584935769
 30
0.0
 10
1.111211300568382
 20
-0.1845249018853868
 30
0.0
 10
1.170816483820595
 20
-0.2365945827758145
 30
0.0
 10
1.175464240441695
 20
-0.3054735458913582
 30
0.0
 10
1.175464240441695
 20
-0.3054735458913582
 30
0.0
 10
1.277123574654903
 20
-1.812047599793573
 30
0.0
 10
1.277123574654903
 20
-1.812047599793573
 30
0.0
 10
1.281771331262942
 20
-1.880926562907045
 30
0.0
 10
1.229701650372539
 20
-1.940531746159283
 30
0.0
 10
1.160822687254747
 20
-1.945179502793571
 30
0.0
  0
SPLINE
  5
49
330
1F
100
AcDbEntity
  8
Layer 1
 62
   240
420
 15540772
370
   106
100
AcDbSpline
210
0.0
220
0.0
230
1.0
 70
    11
 71
     3
 72
    53
 73
    49
 74
     0
 42
0.0000000001
 43
0.0000000001
 12
1.0
 22
0.0
 32
0.0
 13
1.0
 23
0.0
 33
0.0
 40
0.0
 40
0.0
 40
0.0
 40
0.0
 40
1.0
 40
1.0
 40
1.0
 40
2.0
 40
2.0
 40
2.0
 40
3.0
 40
3.0
 40
3.0
 40
4.0
 40
4.0
 40
4.0
 40
5.0
 40
5.0
 40
5.0
 40
6.0
 40
6.0
 40
6.0
 40
7.0
 40
7.0
 40
7.0
 40
8.0
 40
8.0
 40
8.0
 40
9.0
 40
9.0
 40
9.0
 40
10.0
 40
10.0
 40
10.0
 40
11.0
 40
11.0
 40
11.0
 40
12.0
 40
12.0
 40
12.0
 40
13.0
 40
13.0
 40
13.0
 40
14.0
 40
14.0
 40
14.0
 40
15.0
 40
15.0
 40
15.0
 40
16.0
 40
16.0
 40
16.0
 40
16.0
 10
11.05781916965477
 20
-0.3881000906935823
 30
0.0
 10
11.05781916965477
 20
-0.3881000906935823
 30
0.0
 10
2.632490665054749
 20
-0.3881000906935823
 30
0.0
 10
2.632490665054749
 20
-0.3881000906935823
 30
0.0
 10
2.141830580731847
 20
-0.3881000906935823
 30
0.0
 10
1.662017657184631
 20
-0.2437166680131592
 30
0.0
 10
1.252838456899073
 20
0.0270594395028259
 30
0.0
 10
1.022553337425456
 20
0.1794516143941993
 30
0.0
 10
0.7123320962210123
 20
0.1163069065980961
 30
0.0
 10
0.5599399212940676
 20
-0.11397821286246
 30
0.0
 10
0.4986577216449051
 20
-0.2065838776466459
 30
0.0
 10
0.4699473594551667
 20
-0.3169551719496945
 30
0.0
 10
0.4783370535162703
 20
-0.4276842565551027
 30
0.0
 10
0.4783370535162703
 20
-0.4276842565551027
 30
0.0
 10
0.5849952774547597
 20
-1.835383681793587
 30
0.0
 10
0.5849952774547597
 20
-1.835383681793587
 30
0.0
 10
0.5912184066193428
 20
-1.917517951531775
 30
0.0
 10
0.6014969564590602
 20
-1.999294478921898
 30
0.0
 10
0.6157933146378127
 20
-2.080414018759383
 30
0.0
 10
0.6157933146378127
 20
-2.080414018759383
 30
0.0
 10
1.319765576154749
 20
-6.074851287193547
 30
0.0
 10
1.319765576154749
 20
-6.074851287193547
 30
0.0
 10
1.656704895205444
 20
-7.986692203286339
 30
0.0
 10
3.31775174794004
 20
-9.380597931593583
 30
0.0
 10
5.259056410554763
 20
-9.380597931593583
 30
0.0
 10
5.259056410554763
 20
-9.380597931593583
 30
0.0
 10
8.431253424154773
 20
-9.380597931593583
 30
0.0
 10
8.431253424154773
 20
-9.380597931593583
 30
0.0
 10
10.37255808676951
 20
-9.380597931593583
 30
0.0
 10
12.03360493950423
 20
-7.986692203286339
 30
0.0
 10
12.37054425858211
 20
-6.074851287218962
 30
0.0
 10
12.37054425858211
 20
-6.074851287218962
 30
0.0
 10
13.07451652005476
 20
-2.080414018693558
 30
0.0
 10
13.07451652005476
 20
-2.080414018693558
 30
0.0
 10
13.08881287825059
 20
-1.999294478921898
 30
0.0
 10
13.0990914280902
 20
-1.917517951531775
 30
0.0
 10
13.10531455724741
 20
-1.835383681801495
 30
0.0
 10
13.10531455724741
 20
-1.835383681801495
 30
0.0
 10
13.21197278125474
 20
-0.4276842564935855
 30
0.0
 10
13.21197278125474
 20
-0.4276842564935855
 30
0.0
 10
13.23283567012767
 20
-0.1523311176784242
 30
0.0
 10
13.02653056039308
 20
0.0877994183107376
 30
0.0
 10
12.75117742151643
 20
0.1086623072450266
 30
0.0
 10
12.640448336911
 20
0.1170520013060039
 30
0.0
 10
12.53007704260795
 20
0.088341639116417
 30
0.0
 10
12.43747137782364
 20
0.027059439467103
 30
0.0
 10
12.02829217752504
 20
-0.2437166680131592
 30
0.0
 10
11.5484792539778
 20
-0.3881000906935823
 30
0.0
 10
11.05781916965477
 20
-0.3881000906935823
 30
0.0
  0
SPLINE
  5
4A
330
1F
100
AcDbEntity
  8
Layer 1
 62
   240
420
 15540772
370
   106
100
AcDbSpline
210
0.0
220
0.0
230
1.0
 70
    11
 71
     3
 72
    29
 73
    25
 74
     0
 42
0.0000000001
 43
0.0000000001
 12
1.0
 22
0.0
 32
0.0
 13
1.0
 23
0.0
 33
0.0
 40
0.0
 40
0.0
 40
0.0
 40
0.0
 40
1.0
 40
1.0
 40
1.0
 40
2.0
 40
2.0
 40
2.0
 40
3.0
 40
3.0
 40
3.0
 40
4.0
 40
4.0
 40
4.0
 40
5.0
 40
5.0
 40
5.0
 40
6.0
 40
6.0
 40
6.0
 40
7.0
 40
7.0
 40
7.0
 40
8.0
 40
8.0
 40
8.0
 40
8.0
 10
12.88899477984185
 20
-0.3307200692956561
 30
0.0
 10
12.89364253646297
 20
-0.2618411061801124
 30
0.0
 10
12.84157285557255
 20
-0.2022359229277476
 30
0.0
 10
12.77269389245698
 20
-0.1975881663066477
 30
0.0
 10
12.77269389245698
 20
-0.1975881663066477
 30
0.0
 10
12.64797749725479
 20
-0.1891726584935769
 30
0.0
 10
12.64797749725479
 20
-0.1891726584935769
 30
0.0
 10
12.57909853414129
 20
-0.1845249018853868
 30
0.0
 10
12.51949335088905
 20
-0.2365945827758145
 30
0.0
 10
12.51484559426783
 20
-0.3054735458913582
 30
0.0
 10
12.51484559426783
 20
-0.3054735458913582
 30
0.0
 10
12.41318626005477
 20
-1.812047599793573
 30
0.0
 10
12.41318626005477
 20
-1.812047599793573
 30
0.0
 10
12.40853850344673
 20
-1.880926562907045
 30
0.0
 10
12.46060818433711
 20
-1.940531746159283
 30
0.0
 10
12.52948714745475
 20
-1.945179502793571
 30
0.0
 10
12.52948714745475
 20
-1.945179502793571
 30
0.0
 10
12.65420354265476
 20
-1.95359501059358
 30
0.0
 10
12.65420354265476
 20
-1.95359501059358
 30
0.0
 10
12.72308250576836
 20
-1.958242767201758
 30
0.0
 10
12.7826876890206
 20
-1.906173086311343
 30
0.0
 10
12.78733544564183
 20
-1.837294123195673
 30
0.0
 10
12.78733544564183
 20
-1.837294123195673
 30
0.0
 10
12.88899477984185
 20
-0.3307200692956561
 30
0.0
 10
12.88899477984185
 20
-0.3307200692956561
 30
0.0
  0
ENDSEC
  0
SECTION
  2
OBJECTS
  0
DICTIONARY
  5
C
330
0
100
AcDbDictionary
281
     1
  3
ACAD_GROUP
350
D
  3
ACAD_LAYOUT
350
1A
  3
ACAD_MATERIAL
350
3B
  3
ACAD_MLEADERSTYLE
350
4C
  3
ACAD_MLINESTYLE
350
17
  3
ACAD_PLOTSETTINGS
350
19
  3
ACAD_PLOTSTYLENAME
350
E
  3
ACAD_TABLESTYLE
350
4B
  3
ACAD_VISUALSTYLE
350
2A
  0
SUN
  5
3F
330
29
100
AcDbSun
 90
        1
290
     0
 63
     7
421
 16777215
 40
1.0
291
     1
 91
  2455826
 92
 54000000
292
     0
 70
     2
 71
   256
280
     1
  0
DICTIONARY
  5
D
102
{ACAD_REACTORS
330
C
102
}
330
C
100
AcDbDictionary
281
     1
  0
DICTIONARY
  5
1A
102
{ACAD_REACTORS
330
C
102
}
330
C
100
AcDbDictionary
281
     1
  3
Layout1
350
1E
  3
Layout2
350
26
  3
Model
350
22
  0
DICTIONARY
  5
3B
102
{ACAD_REACTORS
330
C
102
}
330
C
100
AcDbDictionary
281
     1
  3
ByBlock
350
3D
  3
ByLayer
350
3C
  3
Global
350
3E
  0
DICTIONARY
  5
4C
102
{ACAD_REACTORS
330
C
102
}
330
C
100
AcDbDictionary
281
     1
  0
DICTIONARY
  5
17
102
{ACAD_REACTORS
330
C
102
}
330
C
100
AcDbDictionary
281
     1
  3
Standard
350
18
  0
DICTIONARY
  5
19
102
{ACAD_REACTORS
330
C
102
}
330
C
100
AcDbDictionary
281
     1
  0
ACDBDICTIONARYWDFLT
  5
E
102
{ACAD_REACTORS
330
C
102
}
330
C
100
AcDbDictionary
281
     1
  3
Normal
350
F
100
AcDbDictionaryWithDefault
340
F
  0
DICTIONARY
  5
4B
102
{ACAD_REACTORS
330
C
102
}
330
C
100
AcDbDictionary
281
     1
  0
DICTIONARY
  5
2A
102
{ACAD_REACTORS
330
C
102
}
330
C
100
AcDbDictionary
281
     1
  3
2dWireframe
350
2F
  3
3D Hidden
350
31
  3
3dWireframe
350
30
  3
Basic
350
32
  3
Brighten
350
36
  3
ColorChange
350
3A
  3
Conceptual
350
34
  3
Dim
350
35
  3
Facepattern
350
39
  3
Flat
350
2B
  3
FlatWithEdges
350
2C
  3
Gouraud
350
2D
  3
GouraudWithEdges
350
2E
  3
Linepattern
350
38
  3
Realistic
350
33
  3
Thicken
350
37
  0
LAYOUT
  5
1E
102
{ACAD_REACTORS
330
1A
102
}
330
1A
100
AcDbPlotSettings
  1

  2
none_device
  4

  6

 40
0.0
 41
0.0
 42
0.0
 43
0.0
 44
0.0
 45
0.0
 46
0.0
 47
0.0
 48
0.0
 49
0.0
140
0.0
141
0.0
142
1.0
143
1.0
 70
   688
 72
     0
 73
     0
 74
     5
  7

 75
    16
 76
     0
 77
     2
 78
   300
147
1.0
148
0.0
149
0.0
100
AcDbLayout
  1
Layout1
 70
     1
 71
     1
 10
0.0
 20
0.0
 11
12.0
 21
9.0
 12
0.0
 22
0.0
 32
0.0
 14
1.000000000000000E+20
 24
1.000000000000000E+20
 34
1.000000000000000E+20
 15
-1.000000000000000E+20
 25
-1.000000000000000E+20
 35
-1.000000000000000E+20
146
0.0
 13
0.0
 23
0.0
 33
0.0
 16
1.0
 26
0.0
 36
0.0
 17
0.0
 27
1.0
 37
0.0
 76
     0
330
1B
  0
LAYOUT
  5
26
102
{ACAD_REACTORS
330
1A
102
}
330
1A
100
AcDbPlotSettings
  1

  2
none_device
  4

  6

 40
0.0
 41
0.0
 42
0.0
 43
0.0
 44
0.0
 45
0.0
 46
0.0
 47
0.0
 48
0.0
 49
0.0
140
0.0
141
0.0
142
1.0
143
1.0
 70
   688
 72
     0
 73
     0
 74
     5
  7

 75
    16
 76
     0
 77
     2
 78
   300
147
1.0
148
0.0
149
0.0
100
AcDbLayout
  1
Layout2
 70
     1
 71
     2
 10
0.0
 20
0.0
 11
0.0
 21
0.0
 12
0.0
 22
0.0
 32
0.0
 14
0.0
 24
0.0
 34
0.0
 15
0.0
 25
0.0
 35
0.0
146
0.0
 13
0.0
 23
0.0
 33
0.0
 16
1.0
 26
0.0
 36
0.0
 17
0.0
 27
1.0
 37
0.0
 76
     0
330
23
  0
LAYOUT
  5
22
102
{ACAD_REACTORS
330
1A
102
}
330
1A
100
AcDbPlotSettings
  1

  2
none_device
  4

  6

 40
0.0
 41
0.0
 42
0.0
 43
0.0
 44
0.0
 45
0.0
 46
0.0
 47
0.0
 48
0.0
 49
0.0
140
0.0
141
0.0
142
1.0
143
1.0
 70
  1712
 72
     0
 73
     0
 74
     0
  7

 75
     0
 76
     0
 77
     2
 78
   300
147
1.0
148
0.0
149
0.0
100
AcDbLayout
  1
Model
 70
     1
 71
     0
 10
0.0
 20
0.0
 11
12.0
 21
9.0
 12
0.0
 22
0.0
 32
0.0
 14
1.000000000000000E+20
 24
1.000000000000000E+20
 34
1.000000000000000E+20
 15
-1.000000000000000E+20
 25
-1.000000000000000E+20
 35
-1.000000000000000E+20
146
0.0
 13
0.0
 23
0.0
 33
0.0
 16
1.0
 26
0.0
 36
0.0
 17
0.0
 27
1.0
 37
0.0
 76
     0
330
1F
331
29
  0
MATERIAL
  5
3D
102
{ACAD_REACTORS
330
3B
102
}
330
3B
100
AcDbMaterial
  1
ByBlock
 72
     1
 94
      127
  0
MATERIAL
  5
3C
102
{ACAD_REACTORS
330
3B
102
}
330
3B
100
AcDbMaterial
  1
ByLayer
 72
     1
 94
      127
  0
MATERIAL
  5
3E
102
{ACAD_REACTORS
330
3B
102
}
330
3B
100
AcDbMaterial
  1
Global
 72
     1
 94
      127
  0
MLINESTYLE
  5
18
102
{ACAD_REACTORS
330
17
102
}
330
17
100
AcDbMlineStyle
  2
Standard
 70
     0
  3

 62
   256
 51
90.0
 52
90.0
 71
     2
 49
0.5
 62
   256
  6
BYLAYER
 49
-0.5
 62
   256
  6
BYLAYER
  0
ACDBPLACEHOLDER
  5
F
102
{ACAD_REACTORS
330
E
102
}
330
E
  0
VISUALSTYLE
  5
2F
102
{ACAD_REACTORS
330
2A
102
}
330
2A
100
AcDbVisualStyle
  2
2dWireframe
 70
     4
177
     2
291
     0
 71
     0
176
     1
 72
     2
176
     1
 73
     0
176
     1
 90
        0
176
     1
 40
-0.6
176
     1
 41
-30.0
176
     1
 62
     5
 63
     7
421
 16777215
176
     1
 74
     1
176
     1
 91
        4
176
     1
 64
     7
176
     1
 65
   257
176
     1
 75
     1
176
     1
175
     1
176
     1
 42
1.0
176
     1
 92
        0
176
     1
 66
   257
176
     1
 43
1.0
176
     1
 76
     1
176
     1
 77
     6
176
     1
 78
     2
176
     1
 67
     7
176
     1
 79
     5
176
     1
170
     0
176
     1
171
     0
176
     1
290
     0
176
     1
 93
        1
176
     1
 44
0.0
176
     1
173
     0
176
     1
  0
VISUALSTYLE
  5
31
102
{ACAD_REACTORS
330
2A
102
}
330
2A
100
AcDbVisualStyle
  2
3D Hidden
 70
     6
177
     2
291
     0
 71
     1
176
     1
 72
     2
176
     1
 73
     2
176
     1
 90
        0
176
     1
 40
-0.6
176
     1
 41
-30.0
176
     1
 62
     5
 63
     7
421
 16777215
176
     1
 74
     2
176
     1
 91
        2
176
     1
 64
     7
176
     1
 65
   257
176
     1
 75
     2
176
     1
175
     1
176
     1
 42
40.0
176
     1
 92
        0
176
     1
 66
   257
176
     1
 43
1.0
176
     1
 76
     1
176
     1
 77
     6
176
     1
 78
     2
176
     1
 67
     7
176
     1
 79
     3
176
     1
170
     0
176
     1
171
     0
176
     1
290
     0
176
     1
 93
        1
176
     1
 44
0.0
176
     1
173
     0
176
     1
  0
VISUALSTYLE
  5
30
102
{ACAD_REACTORS
330
2A
102
}
330
2A
100
AcDbVisualStyle
  2
3dWireframe
 70
     5
177
     2
291
     0
 71
     0
176
     1
 72
     2
176
     1
 73
     0
176
     1
 90
        0
176
     1
 40
-0.6
176
     1
 41
-30.0
176
     1
 62
     5
 63
     7
421
 16777215
176
     1
 74
     1
176
     1
 91
        4
176
     1
 64
     7
176
     1
 65
   257
176
     1
 75
     1
176
     1
175
     1
176
     1
 42
1.0
176
     1
 92
        0
176
     1
 66
   257
176
     1
 43
1.0
176
     1
 76
     1
176
     1
 77
     6
176
     1
 78
     2
176
     1
 67
     7
176
     1
 79
     5
176
     1
170
     0
176
     1
171
     0
176
     1
290
     0
176
     1
 93
        1
176
     1
 44
0.0
176
     1
173
     0
176
     1
  0
VISUALSTYLE
  5
32
102
{ACAD_REACTORS
330
2A
102
}
330
2A
100
AcDbVisualStyle
  2
Basic
 70
     7
177
     2
291
     1
 71
     1
176
     1
 72
     0
176
     1
 73
     1
176
     1
 90
        0
176
     1
 40
-0.6
176
     1
 41
-30.0
176
     1
 62
     5
 63
     7
421
 16777215
176
     1
 74
     0
176
     1
 91
        4
176
     1
 64
     7
176
     1
 65
   257
176
     1
 75
     1
176
     1
175
     1
176
     1
 42
1.0
176
     1
 92
        8
176
     1
 66
     7
176
     1
 43
1.0
176
     1
 76
     1
176
     1
 77
     6
176
     1
 78
     2
176
     1
 67
     7
176
     1
 79
     5
176
     1
170
     0
176
     1
171
     0
176
     1
290
     0
176
     1
 93
        1
176
     1
 44
0.0
176
     1
173
     0
176
     1
  0
VISUALSTYLE
  5
36
102
{ACAD_REACTORS
330
2A
102
}
330
2A
100
AcDbVisualStyle
  2
Brighten
 70
    12
177
     2
291
     1
 71
     2
176
     1
 72
     2
176
     1
 73
     0
176
     1
 90
        0
176
     1
 40
-0.6
176
     1
 41
-30.0
176
     1
 62
     5
 63
     7
421
 16777215
176
     1
 74
     1
176
     1
 91
        4
176
     1
 64
     7
176
     1
 65
   257
176
     1
 75
     1
176
     1
175
     1
176
     1
 42
1.0
176
     1
 92
        8
176
     1
 66
     7
176
     1
 43
1.0
176
     1
 76
     1
176
     1
 77
     6
176
     1
 78
     2
176
     1
 67
     7
176
     1
 79
     5
176
     1
170
     0
176
     1
171
     0
176
     1
290
     0
176
     1
 93
        1
176
     1
 44
50.0
176
     1
173
     0
176
     1
  0
VISUALSTYLE
  5
3A
102
{ACAD_REACTORS
330
2A
102
}
330
2A
100
AcDbVisualStyle
  2
ColorChange
 70
    16
177
     2
291
     1
 71
     2
176
     1
 72
     2
176
     1
 73
     3
176
     1
 90
        0
176
     1
 40
-0.6
176
     1
 41
-30.0
176
     1
 62
     5
 63
     8
421
  8421504
176
     1
 74
     1
176
     1
 91
        4
176
     1
 64
     7
176
     1
 65
   257
176
     1
 75
     1
176
     1
175
     1
176
     1
 42
1.0
176
     1
 92
        8
176
     1
 66
     8
424
  8421504
176
     1
 43
1.0
176
     1
 76
     1
176
     1
 77
     6
176
     1
 78
     2
176
     1
 67
     7
176
     1
 79
     5
176
     1
170
     0
176
     1
171
     0
176
     1
290
     0
176
     1
 93
        1
176
     1
 44
0.0
176
     1
173
     0
176
     1
  0
VISUALSTYLE
  5
34
102
{ACAD_REACTORS
330
2A
102
}
330
2A
100
AcDbVisualStyle
  2
Conceptual
 70
     9
177
     2
291
     0
 71
     3
176
     1
 72
     2
176
     1
 73
     0
176
     1
 90
        0
176
     1
 40
-0.6
176
     1
 41
-30.0
176
     1
 62
     5
 63
     7
421
 16777215
176
     1
 74
     2
176
     1
 91
        2
176
     1
 64
     7
176
     1
 65
   257
176
     1
 75
     1
176
     1
175
     1
176
     1
 42
40.0
176
     1
 92
        8
176
     1
 66
     7
176
     1
 43
1.0
176
     1
 76
     1
176
     1
 77
     6
176
     1
 78
     2
176
     1
 67
     7
176
     1
 79
     3
176
     1
170
     0
176
     1
171
     0
176
     1
290
     0
176
     1
 93
        1
176
     1
 44
0.0
176
     1
173
     0
176
     1
  0
VISUALSTYLE
  5
35
102
{ACAD_REACTORS
330
2A
102
}
330
2A
100
AcDbVisualStyle
  2
Dim
 70
    11
177
     2
291
     1
 71
     2
176
     1
 72
     2
176
     1
 73
     0
176
     1
 90
        0
176
     1
 40
-0.6
176
     1
 41
-30.0
176
     1
 62
     5
 63
     7
421
 16777215
176
     1
 74
     1
176
     1
 91
        4
176
     1
 64
     7
176
     1
 65
   257
176
     1
 75
     1
176
     1
175
     1
176
     1
 42
1.0
176
     1
 92
        8
176
     1
 66
     7
176
     1
 43
1.0
176
     1
 76
     1
176
     1
 77
     6
176
     1
 78
     2
176
     1
 67
     7
176
     1
 79
     5
176
     1
170
     0
176
     1
171
     0
176
     1
290
     0
176
     1
 93
        1
176
     1
 44
-50.0
176
     1
173
     0
176
     1
  0
VISUALSTYLE
  5
39
102
{ACAD_REACTORS
330
2A
102
}
330
2A
100
AcDbVisualStyle
  2
Facepattern
 70
    15
177
     2
291
     1
 71
     2
176
     1
 72
     2
176
     1
 73
     0
176
     1
 90
        0
176
     1
 40
-0.6
176
     1
 41
-30.0
176
     1
 62
     5
 63
     7
421
 16777215
176
     1
 74
     1
176
     1
 91
        4
176
     1
 64
     7
176
     1
 65
   257
176
     1
 75
     1
176
     1
175
     1
176
     1
 42
1.0
176
     1
 92
        8
176
     1
 66
     7
176
     1
 43
1.0
176
     1
 76
     1
176
     1
 77
     6
176
     1
 78
     2
176
     1
 67
     7
176
     1
 79
     5
176
     1
170
     0
176
     1
171
     0
176
     1
290
     0
176
     1
 93
        1
176
     1
 44
0.0
176
     1
173
     0
176
     1
  0
VISUALSTYLE
  5
2B
102
{ACAD_REACTORS
330
2A
102
}
330
2A
100
AcDbVisualStyle
  2
Flat
 70
     0
177
     2
291
     1
 71
     2
176
     1
 72
     1
176
     1
 73
     1
176
     1
 90
        2
176
     1
 40
-0.6
176
     1
 41
30.0
176
     1
 62
     5
 63
     7
421
 16777215
176
     1
 74
     0
176
     1
 91
        4
176
     1
 64
     7
176
     1
 65
   257
176
     1
 75
     1
176
     1
175
     1
176
     1
 42
1.0
176
     1
 92
        8
176
     1
 66
     7
176
     1
 43
1.0
176
     1
 76
     1
176
     1
 77
     6
176
     1
 78
     2
176
     1
 67
     7
176
     1
 79
     5
176
     1
170
     0
176
     1
171
     0
176
     1
290
     0
176
     1
 93
       13
176
     1
 44
0.0
176
     1
173
     0
176
     1
  0
VISUALSTYLE
  5
2C
102
{ACAD_REACTORS
330
2A
102
}
330
2A
100
AcDbVisualStyle
  2
FlatWithEdges
 70
     1
177
     2
291
     1
 71
     2
176
     1
 72
     1
176
     1
 73
     1
176
     1
 90
        2
176
     1
 40
-0.6
176
     1
 41
30.0
176
     1
 62
     5
 63
     7
421
 16777215
176
     1
 74
     1
176
     1
 91
        4
176
     1
 64
     7
176
     1
 65
   257
176
     1
 75
     1
176
     1
175
     1
176
     1
 42
1.0
176
     1
 92
        0
176
     1
 66
   257
176
     1
 43
1.0
176
     1
 76
     1
176
     1
 77
     6
176
     1
 78
     2
176
     1
 67
     7
176
     1
 79
     5
176
     1
170
     0
176
     1
171
     0
176
     1
290
     0
176
     1
 93
       13
176
     1
 44
0.0
176
     1
173
     0
176
     1
  0
VISUALSTYLE
  5
2D
102
{ACAD_REACTORS
330
2A
102
}
330
2A
100
AcDbVisualStyle
  2
Gouraud
 70
     2
177
     2
291
     1
 71
     2
176
     1
 72
     2
176
     1
 73
     1
176
     1
 90
        2
176
     1
 40
-0.6
176
     1
 41
30.0
176
     1
 62
     5
 63
     7
421
 16777215
176
     1
 74
     0
176
     1
 91
        4
176
     1
 64
     7
176
     1
 65
   257
176
     1
 75
     1
176
     1
175
     1
176
     1
 42
1.0
176
     1
 92
        0
176
     1
 66
     7
176
     1
 43
1.0
176
     1
 76
     1
176
     1
 77
     6
176
     1
 78
     2
176
     1
 67
     7
176
     1
 79
     5
176
     1
170
     0
176
     1
171
     0
176
     1
290
     0
176
     1
 93
       13
176
     1
 44
0.0
176
     1
173
     0
176
     1
  0
VISUALSTYLE
  5
2E
102
{ACAD_REACTORS
330
2A
102
}
330
2A
100
AcDbVisualStyle
  2
GouraudWithEdges
 70
     3
177
     2
291
     1
 71
     2
176
     1
 72
     2
176
     1
 73
     1
176
     1
 90
        2
176
     1
 40
-0.6
176
     1
 41
30.0
176
     1
 62
     5
 63
     7
421
 16777215
176
     1
 74
     1
176
     1
 91
        4
176
     1
 64
     7
176
     1
 65
   257
176
     1
 75
     1
176
     1
175
     1
176
     1
 42
1.0
176
     1
 92
        0
176
     1
 66
   257
176
     1
 43
1.0
176
     1
 76
     1
176
     1
 77
     6
176
     1
 78
     2
176
     1
 67
     7
176
     1
 79
     5
176
     1
170
     0
176
     1
171
     0
176
     1
290
     0
176
     1
 93
       13
176
     1
 44
0.0
176
     1
173
     0
176
     1
  0
VISUALSTYLE
  5
38
102
{ACAD_REACTORS
330
2A
102
}
330
2A
100
AcDbVisualStyle
  2
Linepattern
 70
    14
177
     2
291
     1
 71
     2
176
     1
 72
     2
176
     1
 73
     0
176
     1
 90
        0
176
     1
 40
-0.6
176
     1
 41
-30.0
176
     1
 62
     5
 63
     7
421
 16777215
176
     1
 74
     1
176
     1
 91
        4
176
     1
 64
     7
176
     1
 65
   257
176
     1
 75
     7
176
     1
175
     7
176
     1
 42
1.0
176
     1
 92
        8
176
     1
 66
     7
176
     1
 43
1.0
176
     1
 76
     1
176
     1
 77
     6
176
     1
 78
     2
176
     1
 67
     7
176
     1
 79
     5
176
     1
170
     0
176
     1
171
     0
176
     1
290
     0
176
     1
 93
        1
176
     1
 44
0.0
176
     1
173
     0
176
     1
  0
VISUALSTYLE
  5
33
102
{ACAD_REACTORS
330
2A
102
}
330
2A
100
AcDbVisualStyle
  2
Realistic
 70
     8
177
     2
291
     0
 71
     2
176
     1
 72
     2
176
     1
 73
     0
176
     1
 90
        0
176
     1
 40
-0.6
176
     1
 41
-30.0
176
     1
 62
     5
 63
     7
421
 16777215
176
     1
 74
     1
176
     1
 91
        0
176
     1
 64
     7
176
     1
 65
   257
176
     1
 75
     1
176
     1
175
     1
176
     1
 42
1.0
176
     1
 92
        8
176
     1
 66
     8
424
  7895160
176
     1
 43
1.0
176
     1
 76
     1
176
     1
 77
     6
176
     1
 78
     2
176
     1
 67
     7
176
     1
 79
     5
176
     1
170
     0
176
     1
171
     0
176
     1
290
     0
176
     1
 93
       13
176
     1
 44
0.0
176
     1
173
     0
176
     1
  0
VISUALSTYLE
  5
37
102
{ACAD_REACTORS
330
2A
102
}
330
2A
100
AcDbVisualStyle
  2
Thicken
 70
    13
177
     2
291
     1
 71
     2
176
     1
 72
     2
176
     1
 73
     0
176
     1
 90
        0
176
     1
 40
-0.6
176
     1
 41
-30.0
176
     1
 62
     5
 63
     7
421
 16777215
176
     1
 74
     1
176
     1
 91
        4
176
     1
 64
     7
176
     1
 65
   257
176
     1
 75
     1
176
     1
175
     1
176
     1
 42
1.0
176
     1
 92
       12
176
     1
 66
     7
176
     1
 43
1.0
176
     1
 76
     1
176
     1
 77
     6
176
     1
 78
     2
176
     1
 67
     7
176
     1
 79
     5
176
     1
170
     0
176
     1
171
     0
176
     1
290
     0
176
     1
 93
        1
176
     1
 44
0.0
176
     1
173
     0
176
     1
  0
ENDSEC
  0
EOF
